Вітаю Вас Гість!
Четвер, 21.09.2017, 21:26
Головна | Реєстрація | Вхід | RSS
[ Нові повідомлення · Учасники · Правила форуму · Пошук · RSS ]
Сторінка 1 з 11
Форум » Львів » Ваші захоплення » Гітара
Гітара
ЛанаДата: Субота, 19.06.2010, 11:39 | Сообщение # 1
Знає куди піти у вихідні
Група: Адміністатор
Сообщений: 346
Нагороди: 3
Репутація: 18
Статус: Офлайн
Хочу навчитись грати на акустичній гітарі.Які поради можете дати?


Люди,як кури. Думають,що літають,а насправді стрибають просто високо.
 
tarasДата: Субота, 19.06.2010, 11:54 | Сообщение # 2
Знає де знаходяться Брюховичі
Група: Віддані
Сообщений: 261
Нагороди: 4
Репутація: 9
Статус: Офлайн
Я вмію грати на гітарі,вчився десь не більше місяця і все дуже легко.
 
ЛанаДата: Вівторок, 29.06.2010, 10:25 | Сообщение # 3
Знає куди піти у вихідні
Група: Адміністатор
Сообщений: 346
Нагороди: 3
Репутація: 18
Статус: Офлайн
taras, Я вже переконалась,але є проблема,руки болять sad


Люди,як кури. Думають,що літають,а насправді стрибають просто високо.
 
CoffeinДата: Середа, 30.06.2010, 10:22 | Сообщение # 4
О,тепер знає і свій район
Група: Користувачі
Сообщений: 239
Нагороди: 4
Репутація: 12
Статус: Офлайн
Я на фортепяно граю.

 
777Дата: Середа, 30.06.2010, 15:05 | Сообщение # 5
Добре знає свою вулицю
Група: Користувачі
Сообщений: 132
Нагороди: 4
Репутація: 9
Статус: Офлайн
Колись я грав на гітарі багато,але потім продав гітару і купив собі модем
 
DenisДата: Неділя, 04.07.2010, 17:46 | Сообщение # 6
Добре знає свою вулицю
Група: Користувачі
Сообщений: 132
Нагороди: 1
Репутація: 2
Статус: Офлайн
Я вмію.
Люди. допоможіть!
Тре таби до пісні Скрябіна "Сам собі країна"
 
RomaДата: Четвер, 06.01.2011, 02:22 | Сообщение # 7
Знає де продуктовий
Група: Користувачі
Сообщений: 58
Нагороди: 0
Репутація: 3
Статус: Офлайн
Denis, Тримай,друже.
1-й куплет: *
Em
E||-------------3-----------------3----------|
B||------------------------------------------|
G||*-------------------------------------- 0--|
D||*------------2-----------------2----------|
A||------------------------------------2-----|
E||---0----0-----------------0-------- -------|
На твоїх джінсах
У твоїх очах вид- но

A7
------------3-----------------3----------|
-----------------------------------------|
-----------------------------------------|
------ ------2-----------------2-------0--|
--0----0-----------------0---------0-----|
-----------------------------------------|
амери-канський прапор
тіль-ки одне питання

G
------------3-----------------3-------3--|
-----------------------------------------|
-----------------------------------------|
------ ------0-----------------0-------0--|
-----------------------------------2-----|
--3----3-----------------3---------------|
На твоїй майці -
Хто менi скаже -

A7
------------3------------------3-----------||
-------------------------------------------||
------------------------------------------*| |
------------2------------------2-------0--*||
--0----0------------------0---------0------||
------------------------------------------- ||
канадське кленове листя
чому я тут народився

Am
-------------------------------------------|
-------------1-------------------1---------|
*-------2---------2---------2---------2----|
* --2-------------------2-------------------|
---0-------------------0-------------------|
-------------------------------------------|
Не твоя ви-
син А твоя бі-

H7
--------------------------------------------||
------------0--------------------0----------||
-------2---------2----------2---------2--- -*||
--4--------------------4-------------------*||
--2--------------------2--------------------||
-------------------------------------- ------||
на - шо ти бать-ка сво- го
да - не вміти бути ним

Приспів:
Em G
-----------------------------------3--------|
-----------------------------------0--------|
*------------0---------------------0-------- |
*------------2------------------------------|
--------------------------------------------|
---0----0--------------3----3-------------- -|
Не встидайся - то твоя
ї- на Добре там є де нас
D A
--------------5------------------------------||
--------------3--------------------2---------||
--------------2--------------------2---- ----*||
--------------------------------------------*||
-------------------------0----0--------------||
----2----2----------------------- ------------||
земля Не встидайся - то Укра-
нема Стань для батька нормальним сином ...

 
ОлексійДата: Четвер, 06.01.2011, 17:25 | Сообщение # 8
Знає де продуктовий
Група: Користувачі
Сообщений: 46
Нагороди: 0
Репутація: 0
Статус: Офлайн
Сонечко,якщо будеш слухатись,я тебе обов`язково навчу*)
 
ЛанаДата: Четвер, 06.01.2011, 17:26 | Сообщение # 9
Знає куди піти у вихідні
Група: Адміністатор
Сообщений: 346
Нагороди: 3
Репутація: 18
Статус: Офлайн
Олексій, Ха-ха! Дякую,але мені вже не треба. Ти запізнився,любий. happy


Люди,як кури. Думають,що літають,а насправді стрибають просто високо.
 
ОлексійДата: Четвер, 06.01.2011, 17:28 | Сообщение # 10
Знає де продуктовий
Група: Користувачі
Сообщений: 46
Нагороди: 0
Репутація: 0
Статус: Офлайн
Ай,так завжди,але слухатись все одно треба)
 
ЛанаДата: Четвер, 06.01.2011, 17:31 | Сообщение # 11
Знає куди піти у вихідні
Група: Адміністатор
Сообщений: 346
Нагороди: 3
Репутація: 18
Статус: Офлайн
Олексій, Ну звісно... biggrin


Люди,як кури. Думають,що літають,а насправді стрибають просто високо.
 
tarasДата: П'ятниця, 07.01.2011, 12:16 | Сообщение # 12
Знає де знаходяться Брюховичі
Група: Віддані
Сообщений: 261
Нагороди: 4
Репутація: 9
Статус: Офлайн
Олексій, Чувак,ми не в мусульвнській країні! angry
 
ScorchДата: П'ятниця, 07.01.2011, 14:38 | Сообщение # 13
Можна спитати куди йти
Група: Віддані
Сообщений: 485
Нагороди: 6
Репутація: 7
Статус: Офлайн
ахаха))))
 
ОлексійДата: Середа, 12.01.2011, 20:04 | Сообщение # 14
Знає де продуктовий
Група: Користувачі
Сообщений: 46
Нагороди: 0
Репутація: 0
Статус: Офлайн
Та я ж нічого такого не кажу)
 
Форум » Львів » Ваші захоплення » Гітара
Сторінка 1 з 11
Пошук:

Каталог україномовних сайтів